Live versions & rare songs Lucy Leave (Pink Floyd - Early Single)

Pink Floyd Guitar Tabs

  • The Piper

    The Piper Administrator Staff Member Your APFFN host


    LUCY LEAVE
    (unreleased)

    Intro: E D C



    Main Riff:
    E A
    ---------------5---------------
    -------9--------5--------------
    -------9---------4-------------
    ---\-9-------5------------------ a bit uptempo.
    --------------------------------
    --------------------------------



    E A E A E A E A
    Please fall away from me, Lucy,
    E A A# B
    oh, go little girl.

    See that I'm so broken up about you, Lucy,
    Mean treating me and done me harm, Lucy,
    Being in love with you and your charms, Lucy,
    oh, go little girl


    I'm in love with you, Lucy,
    C D C D (main riff)
    You got my heart, you got my heart, Oh no,
    C D C D (main riff)
    You tear me apart, you just won't let me go,
    C D C D (main riff
    You hold on so tight, so tight I just can't breathe,
    C D C D
    Now Lucy leave, Lucy...

    ---------------------
    --4-4-4-4-4-4-4------
    --4-4-4-4-4-4-4------
    --4-4-4-4-4-4-4------
    --2-2-2-2-2-2-2------
    ---------------------

    (return to verse)
    Leave when I ask you to leave, little girl,
    Please fall away from me, little girl,
    yeah, go little girl.
    See that I'm so broke up about you, Lucy,
    Yeah, Go...




     

Comments

Share This Page